<< >> wszystkie blogi

Malvie

...

Gitarowo.

2008-05-15 11:27:27 · 1 komentarz

Tak, tak, to ja.

2008-05-15 01:27:41 · 1 komentarz

Jeszcze tylko tydzień, a nawet mniej.

2007-12-02 22:23:57 · Skomentuj
8 grudnia. Poznań. Ostatni koncert Pidżamy Porno. Będzie zajebiście. Musi być.

Zagadka cytatowa.

2007-10-23 21:17:24 · 8 komentarzy
Kto zna źródło cytatu? ;) "I'll send you a love letter! Straight from my heart, fucker! You know what a love letter is? It's a bullet from a fucking gun, fucker! You receive a love letter from me, you're fucked forever! You understand, fuck? I'll send you straight to hell, fucker!"

Kraina.

2007-10-22 19:51:51 · Skomentuj
Przyjmijmy że świat jest kolorowy. Że gdzieś tam, po drugiej stronie purpurowego horyzontu, jest miejsce gdzie czarno-białym flamastrem namalowano maluteńkie motyle. Gdzie może nigdy nie jest wzburzopne a Van Gogh i Goethe popijają sobie herbatę z miodem. Zaś nasz kochany Orwell... on jak zawsze miał w zwyczaju po raz kolejny ewaporował rok 1986 (ten przeklęty, przesiąknięty radioaktywnymi pyłami) a ludzie... powiedzmy że ich akurat tam niema

Bad, worse, worst.

2007-10-20 18:56:36 · 2 komentarze
Niektóre wspomnienia działają tak, jakby mi ktoś przypierdolił kijem baseballowym w łeb ;/

Stairway to heaven ... ?

2007-10-20 14:56:51 · 1 komentarz

Kolejny koniec świata.

2007-10-16 11:56:37 · 1 komentarz

Rozpoznaje ktoś?

2007-10-15 14:20:13 · 12 komentarzy
e||-----------------------------------------------------------|
B||---10---10---10---10--5-5/6--6---6---6---6\5---------------|
G||-----------------------------------------------------------|
D||-----------------------------------------------------------|
A||-8----8----8----8-----3-3/5----5---5---5---\3--3-----------|
E||-----------------------------------------------------------|

e|------------------------------------------------------------|
B|---10---10---10---10-8--5/6----8p6-8p6----------------------|
G|------------------------------------------------------------|
D|------------------------------------------------------------|
A|-8----8----8----8-------3/5---------------------------------|
E|------------------------------------------------------------|
:)

Zabić siebie.

2007-10-14 22:12:13 · 5 komentarzy
12»
Najnowsze posty
Najpopularniejsze posty
Moje pliki
Moje albumy w Szaffie
Linki
Statsy bloga
  • Postów: 18
  • Komentarzy: 40
  • Odsłon: 5020

Napędzana humorem dzięki Joe Monsterowi